ISO-10303-21;
HEADER;
/* Generated by software containing ST-Developer
 * from STEP Tools, Inc. (www.steptools.com) 
 */
/* OPTION: using custom schema-name function */

FILE_DESCRIPTION(
/* description */ (''),
/* implementation_level */ '2;1');

FILE_NAME(
/* name */ 'WOX 6-6 Kundenmodell.stp',
/* time_stamp */ '2015-10-19T11:44:15+02:00',
/* author */ (''),
/* organization */ (''),
/* preprocessor_version */ 'ST-DEVELOPER v15',
/* originating_system */ 'SIEMENS PLM Software NX 9.0',
/* authorisation */ '');

FILE_SCHEMA (('AUTOMOTIVE_DESIGN { 1 0 10303 214 3 1 1 1 }'));
ENDSEC;

DATA;
#10=PROPERTY_DEFINITION_REPRESENTATION(#14,#12);
#11=PROPERTY_DEFINITION_REPRESENTATION(#15,#13);
#12=REPRESENTATION('',(#16),#327);
#13=REPRESENTATION('',(#17),#327);
#14=PROPERTY_DEFINITION('pmi validation property','',#21);
#15=PROPERTY_DEFINITION('pmi validation property','',#21);
#16=VALUE_REPRESENTATION_ITEM('number of annotations',COUNT_MEASURE(0.));
#17=VALUE_REPRESENTATION_ITEM('number of views',COUNT_MEASURE(0.));
#18=SHAPE_REPRESENTATION_RELATIONSHIP('None',
'relationship between zer189C0F9Fge8j-None and zer189C0F9Fge8j-None',#30,
#19);
#19=ADVANCED_BREP_SHAPE_REPRESENTATION('zer189C0F9Fge8j-None',(#76,#77,
#78),#327);
#20=SHAPE_DEFINITION_REPRESENTATION(#21,#30);
#21=PRODUCT_DEFINITION_SHAPE('','',#22);
#22=PRODUCT_DEFINITION(' ','',#24,#23);
#23=PRODUCT_DEFINITION_CONTEXT('part definition',#29,'design');
#24=PRODUCT_DEFINITION_FORMATION_WITH_SPECIFIED_SOURCE(' ',' ',#26,
 .NOT_KNOWN.);
#25=PRODUCT_RELATED_PRODUCT_CATEGORY('part','',(#26));
#26=PRODUCT('zer189C0F9Fge8j','zer189C0F9Fge8j',' ',(#27));
#27=PRODUCT_CONTEXT(' ',#29,'mechanical');
#28=APPLICATION_PROTOCOL_DEFINITION('international standard',
'automotive_design',2010,#29);
#29=APPLICATION_CONTEXT(
'core data for automotive mechanical design processes');
#30=SHAPE_REPRESENTATION('zer189C0F9Fge8j-None',(#214),#327);
#31=OVER_RIDING_STYLED_ITEM('',(#39),#90,#35);
#32=OVER_RIDING_STYLED_ITEM('',(#41),#92,#36);
#33=OVER_RIDING_STYLED_ITEM('',(#43),#97,#37);
#34=PRESENTATION_LAYER_ASSIGNMENT('90','Layer 90',(#76,#77,#78));
#35=STYLED_ITEM('',(#38),#76);
#36=STYLED_ITEM('',(#40),#77);
#37=STYLED_ITEM('',(#42),#78);
#38=PRESENTATION_STYLE_ASSIGNMENT((#44));
#39=PRESENTATION_STYLE_ASSIGNMENT((#45));
#40=PRESENTATION_STYLE_ASSIGNMENT((#46));
#41=PRESENTATION_STYLE_ASSIGNMENT((#47));
#42=PRESENTATION_STYLE_ASSIGNMENT((#48));
#43=PRESENTATION_STYLE_ASSIGNMENT((#49));
#44=SURFACE_STYLE_USAGE(.BOTH.,#50);
#45=SURFACE_STYLE_USAGE(.BOTH.,#51);
#46=SURFACE_STYLE_USAGE(.BOTH.,#52);
#47=SURFACE_STYLE_USAGE(.BOTH.,#53);
#48=SURFACE_STYLE_USAGE(.BOTH.,#54);
#49=SURFACE_STYLE_USAGE(.BOTH.,#55);
#50=SURFACE_SIDE_STYLE('',(#56));
#51=SURFACE_SIDE_STYLE('',(#57));
#52=SURFACE_SIDE_STYLE('',(#58));
#53=SURFACE_SIDE_STYLE('',(#59));
#54=SURFACE_SIDE_STYLE('',(#60));
#55=SURFACE_SIDE_STYLE('',(#61));
#56=SURFACE_STYLE_FILL_AREA(#62);
#57=SURFACE_STYLE_FILL_AREA(#63);
#58=SURFACE_STYLE_FILL_AREA(#64);
#59=SURFACE_STYLE_FILL_AREA(#65);
#60=SURFACE_STYLE_FILL_AREA(#66);
#61=SURFACE_STYLE_FILL_AREA(#67);
#62=FILL_AREA_STYLE('',(#68));
#63=FILL_AREA_STYLE('',(#69));
#64=FILL_AREA_STYLE('',(#70));
#65=FILL_AREA_STYLE('',(#71));
#66=FILL_AREA_STYLE('',(#72));
#67=FILL_AREA_STYLE('',(#73));
#68=FILL_AREA_STYLE_COLOUR('',#74);
#69=FILL_AREA_STYLE_COLOUR('',#75);
#70=FILL_AREA_STYLE_COLOUR('',#74);
#71=FILL_AREA_STYLE_COLOUR('',#75);
#72=FILL_AREA_STYLE_COLOUR('',#74);
#73=FILL_AREA_STYLE_COLOUR('',#75);
#74=COLOUR_RGB('Silver Gray',0.6,0.6,0.6);
#75=COLOUR_RGB('Granite Gray',0.4,0.4,0.4);
#76=MANIFOLD_SOLID_BREP('',#79);
#77=MANIFOLD_SOLID_BREP('',#80);
#78=MANIFOLD_SOLID_BREP('',#81);
#79=CLOSED_SHELL('',(#88,#89,#90,#91));
#80=CLOSED_SHELL('',(#92,#93,#94,#95));
#81=CLOSED_SHELL('',(#96,#97,#98,#99));
#82=TOROIDAL_SURFACE('',#219,7.45,3.);
#83=TOROIDAL_SURFACE('',#222,7.45,3.);
#84=TOROIDAL_SURFACE('',#225,7.45,3.);
#85=TOROIDAL_SURFACE('',#229,7.45,3.);
#86=TOROIDAL_SURFACE('',#235,7.45000000000001,3.);
#87=TOROIDAL_SURFACE('',#238,7.45000000000001,3.);
#88=ADVANCED_FACE('',(#106,#107),#100,.T.);
#89=ADVANCED_FACE('',(#108,#109),#82,.T.);
#90=ADVANCED_FACE('',(#110,#111),#101,.T.);
#91=ADVANCED_FACE('',(#112,#113),#83,.T.);
#92=ADVANCED_FACE('',(#114,#115),#84,.T.);
#93=ADVANCED_FACE('',(#116,#117),#102,.T.);
#94=ADVANCED_FACE('',(#118,#119),#85,.T.);
#95=ADVANCED_FACE('',(#120,#121),#103,.T.);
#96=ADVANCED_FACE('',(#122,#123),#104,.T.);
#97=ADVANCED_FACE('',(#124,#125),#86,.T.);
#98=ADVANCED_FACE('',(#126,#127),#105,.T.);
#99=ADVANCED_FACE('',(#128,#129),#87,.T.);
#100=CYLINDRICAL_SURFACE('',#217,3.);
#101=CYLINDRICAL_SURFACE('',#221,3.);
#102=CYLINDRICAL_SURFACE('',#227,3.);
#103=CYLINDRICAL_SURFACE('',#230,3.);
#104=CYLINDRICAL_SURFACE('',#233,3.);
#105=CYLINDRICAL_SURFACE('',#237,3.);
#106=FACE_BOUND('',#130,.T.);
#107=FACE_BOUND('',#131,.T.);
#108=FACE_BOUND('',#132,.T.);
#109=FACE_BOUND('',#133,.T.);
#110=FACE_BOUND('',#134,.T.);
#111=FACE_BOUND('',#135,.T.);
#112=FACE_BOUND('',#136,.T.);
#113=FACE_BOUND('',#137,.T.);
#114=FACE_BOUND('',#138,.T.);
#115=FACE_BOUND('',#139,.T.);
#116=FACE_BOUND('',#140,.T.);
#117=FACE_BOUND('',#141,.T.);
#118=FACE_BOUND('',#142,.T.);
#119=FACE_BOUND('',#143,.T.);
#120=FACE_BOUND('',#144,.T.);
#121=FACE_BOUND('',#145,.T.);
#122=FACE_BOUND('',#146,.T.);
#123=FACE_BOUND('',#147,.T.);
#124=FACE_BOUND('',#148,.T.);
#125=FACE_BOUND('',#149,.T.);
#126=FACE_BOUND('',#150,.T.);
#127=FACE_BOUND('',#151,.T.);
#128=FACE_BOUND('',#152,.T.);
#129=FACE_BOUND('',#153,.T.);
#130=EDGE_LOOP('',(#154));
#131=EDGE_LOOP('',(#155));
#132=EDGE_LOOP('',(#156));
#133=EDGE_LOOP('',(#157));
#134=EDGE_LOOP('',(#158));
#135=EDGE_LOOP('',(#159));
#136=EDGE_LOOP('',(#160));
#137=EDGE_LOOP('',(#161));
#138=EDGE_LOOP('',(#162));
#139=EDGE_LOOP('',(#163));
#140=EDGE_LOOP('',(#164));
#141=EDGE_LOOP('',(#165));
#142=EDGE_LOOP('',(#166));
#143=EDGE_LOOP('',(#167));
#144=EDGE_LOOP('',(#168));
#145=EDGE_LOOP('',(#169));
#146=EDGE_LOOP('',(#170));
#147=EDGE_LOOP('',(#171));
#148=EDGE_LOOP('',(#172));
#149=EDGE_LOOP('',(#173));
#150=EDGE_LOOP('',(#174));
#151=EDGE_LOOP('',(#175));
#152=EDGE_LOOP('',(#176));
#153=EDGE_LOOP('',(#177));
#154=ORIENTED_EDGE('',*,*,#190,.T.);
#155=ORIENTED_EDGE('',*,*,#191,.F.);
#156=ORIENTED_EDGE('',*,*,#192,.T.);
#157=ORIENTED_EDGE('',*,*,#190,.F.);
#158=ORIENTED_EDGE('',*,*,#192,.F.);
#159=ORIENTED_EDGE('',*,*,#193,.T.);
#160=ORIENTED_EDGE('',*,*,#193,.F.);
#161=ORIENTED_EDGE('',*,*,#191,.T.);
#162=ORIENTED_EDGE('',*,*,#194,.T.);
#163=ORIENTED_EDGE('',*,*,#195,.F.);
#164=ORIENTED_EDGE('',*,*,#196,.T.);
#165=ORIENTED_EDGE('',*,*,#194,.F.);
#166=ORIENTED_EDGE('',*,*,#197,.T.);
#167=ORIENTED_EDGE('',*,*,#196,.F.);
#168=ORIENTED_EDGE('',*,*,#197,.F.);
#169=ORIENTED_EDGE('',*,*,#195,.T.);
#170=ORIENTED_EDGE('',*,*,#198,.T.);
#171=ORIENTED_EDGE('',*,*,#199,.F.);
#172=ORIENTED_EDGE('',*,*,#200,.T.);
#173=ORIENTED_EDGE('',*,*,#198,.F.);
#174=ORIENTED_EDGE('',*,*,#200,.F.);
#175=ORIENTED_EDGE('',*,*,#201,.T.);
#176=ORIENTED_EDGE('',*,*,#201,.F.);
#177=ORIENTED_EDGE('',*,*,#199,.T.);
#178=VERTEX_POINT('',#291);
#179=VERTEX_POINT('',#293);
#180=VERTEX_POINT('',#296);
#181=VERTEX_POINT('',#299);
#182=VERTEX_POINT('',#303);
#183=VERTEX_POINT('',#305);
#184=VERTEX_POINT('',#308);
#185=VERTEX_POINT('',#311);
#186=VERTEX_POINT('',#315);
#187=VERTEX_POINT('',#317);
#188=VERTEX_POINT('',#320);
#189=VERTEX_POINT('',#323);
#190=EDGE_CURVE('',#178,#178,#202,.T.);
#191=EDGE_CURVE('',#179,#179,#203,.T.);
#192=EDGE_CURVE('',#180,#180,#204,.T.);
#193=EDGE_CURVE('',#181,#181,#205,.T.);
#194=EDGE_CURVE('',#182,#182,#206,.T.);
#195=EDGE_CURVE('',#183,#183,#207,.T.);
#196=EDGE_CURVE('',#184,#184,#208,.T.);
#197=EDGE_CURVE('',#185,#185,#209,.T.);
#198=EDGE_CURVE('',#186,#186,#210,.T.);
#199=EDGE_CURVE('',#187,#187,#211,.T.);
#200=EDGE_CURVE('',#188,#188,#212,.T.);
#201=EDGE_CURVE('',#189,#189,#213,.T.);
#202=CIRCLE('',#215,3.);
#203=CIRCLE('',#216,3.);
#204=CIRCLE('',#218,3.);
#205=CIRCLE('',#220,3.);
#206=CIRCLE('',#223,3.);
#207=CIRCLE('',#224,3.);
#208=CIRCLE('',#226,3.);
#209=CIRCLE('',#228,3.);
#210=CIRCLE('',#231,3.);
#211=CIRCLE('',#232,3.);
#212=CIRCLE('',#234,3.);
#213=CIRCLE('',#236,3.);
#214=AXIS2_PLACEMENT_3D('',#289,#239,#240);
#215=AXIS2_PLACEMENT_3D('',#290,#241,#242);
#216=AXIS2_PLACEMENT_3D('',#292,#243,#244);
#217=AXIS2_PLACEMENT_3D('',#294,#245,#246);
#218=AXIS2_PLACEMENT_3D('',#295,#247,#248);
#219=AXIS2_PLACEMENT_3D('',#297,#249,#250);
#220=AXIS2_PLACEMENT_3D('',#298,#251,#252);
#221=AXIS2_PLACEMENT_3D('',#300,#253,#254);
#222=AXIS2_PLACEMENT_3D('',#301,#255,#256);
#223=AXIS2_PLACEMENT_3D('',#302,#257,#258);
#224=AXIS2_PLACEMENT_3D('',#304,#259,#260);
#225=AXIS2_PLACEMENT_3D('',#306,#261,#262);
#226=AXIS2_PLACEMENT_3D('',#307,#263,#264);
#227=AXIS2_PLACEMENT_3D('',#309,#265,#266);
#228=AXIS2_PLACEMENT_3D('',#310,#267,#268);
#229=AXIS2_PLACEMENT_3D('',#312,#269,#270);
#230=AXIS2_PLACEMENT_3D('',#313,#271,#272);
#231=AXIS2_PLACEMENT_3D('',#314,#273,#274);
#232=AXIS2_PLACEMENT_3D('',#316,#275,#276);
#233=AXIS2_PLACEMENT_3D('',#318,#277,#278);
#234=AXIS2_PLACEMENT_3D('',#319,#279,#280);
#235=AXIS2_PLACEMENT_3D('',#321,#281,#282);
#236=AXIS2_PLACEMENT_3D('',#322,#283,#284);
#237=AXIS2_PLACEMENT_3D('',#324,#285,#286);
#238=AXIS2_PLACEMENT_3D('',#325,#287,#288);
#239=DIRECTION('',(0.,0.,1.));
#240=DIRECTION('',(1.,0.,0.));
#241=DIRECTION('',(1.,1.01064309961486E-015,0.));
#242=DIRECTION('',(0.,0.,1.));
#243=DIRECTION('',(1.,1.01064309961486E-015,0.));
#244=DIRECTION('',(0.,0.,1.));
#245=DIRECTION('',(1.,0.,0.));
#246=DIRECTION('',(0.,0.,-1.));
#247=DIRECTION('',(-1.,0.,0.));
#248=DIRECTION('',(0.,0.,1.));
#249=DIRECTION('',(0.,0.,-1.));
#250=DIRECTION('',(-1.,0.,0.));
#251=DIRECTION('',(-1.,0.,0.));
#252=DIRECTION('',(0.,0.,1.));
#253=DIRECTION('',(1.,0.,0.));
#254=DIRECTION('',(0.,0.,-1.));
#255=DIRECTION('',(0.,0.,1.));
#256=DIRECTION('',(1.,0.,0.));
#257=DIRECTION('',(1.,-9.87659282807745E-015,1.59625524447208E-015));
#258=DIRECTION('',(-1.04083408558608E-014,-1.,0.));
#259=DIRECTION('',(-1.,-9.93210397930871E-015,-2.60689834408695E-015));
#260=DIRECTION('',(1.04083408558608E-014,-1.,0.));
#261=DIRECTION('',(-2.77555756156289E-017,1.,6.12303176911189E-017));
#262=DIRECTION('',(0.,-6.12303176911188E-017,1.));
#263=DIRECTION('',(1.,-9.87659282807745E-015,1.59625524447208E-015));
#264=DIRECTION('',(-9.83009969720191E-015,-1.,0.));
#265=DIRECTION('',(1.,4.64707637450242E-016,3.90408096571483E-016));
#266=DIRECTION('',(-5.78241158658936E-016,1.,0.));
#267=DIRECTION('',(-1.,-9.93210397930871E-015,-5.85612144857225E-016));
#268=DIRECTION('',(9.83009969720191E-015,-1.,0.));
#269=DIRECTION('',(-2.77555756156289E-017,1.,6.12303176911189E-017));
#270=DIRECTION('',(0.,-6.12303176911188E-017,1.));
#271=DIRECTION('',(1.,9.93210397930871E-015,5.85612144857225E-016));
#272=DIRECTION('',(-9.83009969720191E-015,1.,0.));
#273=DIRECTION('',(1.,-1.99358234438323E-015,-8.15439051329118E-016));
#274=DIRECTION('',(-2.31296463463574E-015,-1.,0.));
#275=DIRECTION('',(1.,-1.99358234438323E-015,-8.15439051329118E-016));
#276=DIRECTION('',(-1.73472347597681E-015,-1.,0.));
#277=DIRECTION('',(1.,9.03428735972451E-017,0.));
#278=DIRECTION('',(0.,1.,0.));
#279=DIRECTION('',(-1.,-1.99358234438323E-015,-1.95204048285742E-016));
#280=DIRECTION('',(2.31296463463574E-015,-1.,0.));
#281=DIRECTION('',(0.,-1.,0.));
#282=DIRECTION('',(0.,0.,-1.));
#283=DIRECTION('',(-1.,-1.99358234438323E-015,-1.95204048285742E-016));
#284=DIRECTION('',(1.73472347597681E-015,-1.,0.));
#285=DIRECTION('',(1.,1.99358234438323E-015,1.95204048285742E-016));
#286=DIRECTION('',(-2.31296463463574E-015,1.,0.));
#287=DIRECTION('',(0.,1.,0.));
#288=DIRECTION('',(0.,0.,1.));
#289=CARTESIAN_POINT('',(0.,0.,0.));
#290=CARTESIAN_POINT('',(-4.54999999999977,7.45,0.));
#291=CARTESIAN_POINT('',(-4.54999999999977,7.45,3.));
#292=CARTESIAN_POINT('',(4.54999999999975,7.45,0.));
#293=CARTESIAN_POINT('',(4.54999999999975,7.45,3.));
#294=CARTESIAN_POINT('',(-4.54999999999977,7.45,0.));
#295=CARTESIAN_POINT('',(-4.54999999999976,-7.45,0.));
#296=CARTESIAN_POINT('',(-4.54999999999976,-7.45,3.));
#297=CARTESIAN_POINT('',(-4.54999999999976,0.,0.));
#298=CARTESIAN_POINT('',(4.54999999999976,-7.45,0.));
#299=CARTESIAN_POINT('',(4.54999999999976,-7.45,3.));
#300=CARTESIAN_POINT('',(-4.54999999999976,-7.45,0.));
#301=CARTESIAN_POINT('',(4.54999999999976,0.,0.));
#302=CARTESIAN_POINT('',(22.5499999999999,-1.12494846315278E-014,7.44999999999992));
#303=CARTESIAN_POINT('',(22.5499999999998,-3.00000000000001,7.44999999999992));
#304=CARTESIAN_POINT('',(22.5499999999999,-1.03371528979302E-014,-7.45000000000007));
#305=CARTESIAN_POINT('',(22.5499999999999,-3.00000000000001,-7.45000000000007));
#306=CARTESIAN_POINT('',(22.5499999999999,-1.0793318764729E-014,-7.63278329429795E-014));
#307=CARTESIAN_POINT('',(13.4499999999999,-1.5478324132325E-014,7.44999999999992));
#308=CARTESIAN_POINT('',(13.4499999999998,-3.00000000000002,7.44999999999992));
#309=CARTESIAN_POINT('',(13.4499999999999,-1.5478324132325E-014,7.44999999999992));
#310=CARTESIAN_POINT('',(13.4499999999999,-1.45659923987274E-014,-7.45000000000008));
#311=CARTESIAN_POINT('',(13.4499999999999,-3.00000000000001,-7.45000000000008));
#312=CARTESIAN_POINT('',(13.4499999999999,-1.50221582655262E-014,-8.06646416329215E-014));
#313=CARTESIAN_POINT('',(13.4499999999999,-1.45659923987274E-014,-7.45000000000008));
#314=CARTESIAN_POINT('',(-22.5499999999999,-3.76212788333948E-015,-7.45000000000001));
#315=CARTESIAN_POINT('',(-22.5499999999999,-3.,-7.45000000000001));
#316=CARTESIAN_POINT('',(-13.4499999999999,2.85903261657499E-014,-7.45000000000001));
#317=CARTESIAN_POINT('',(-13.4499999999999,-2.99999999999997,-7.45000000000001));
#318=CARTESIAN_POINT('',(-22.5499999999999,-3.76212788333948E-015,-7.45000000000001));
#319=CARTESIAN_POINT('',(-22.5499999999999,-3.76212788333948E-015,7.45000000000002));
#320=CARTESIAN_POINT('',(-22.5499999999999,-3.,7.45000000000002));
#321=CARTESIAN_POINT('',(-22.5499999999999,-3.76212788333948E-015,8.67361737988404E-016));
#322=CARTESIAN_POINT('',(-13.4499999999999,1.43794714505479E-014,7.45000000000002));
#323=CARTESIAN_POINT('',(-13.4499999999999,-2.99999999999999,7.45000000000002));
#324=CARTESIAN_POINT('',(-22.5499999999999,-3.76212788333948E-015,7.45000000000002));
#325=CARTESIAN_POINT('',(-13.4499999999999,2.85903261657499E-014,0.));
#326=MECHANICAL_DESIGN_GEOMETRIC_PRESENTATION_REPRESENTATION('',(#35,#31,
#36,#32,#37,#33),#327);
#327=(
GEOMETRIC_REPRESENTATION_CONTEXT(3)
GLOBAL_UNCERTAINTY_ASSIGNED_CONTEXT((#328))
GLOBAL_UNIT_ASSIGNED_CONTEXT((#334,#330,#329))
REPRESENTATION_CONTEXT('WOX 6-6 Kundenmodell','TOP_LEVEL_ASSEMBLY_PART')
);
#328=UNCERTAINTY_MEASURE_WITH_UNIT(LENGTH_MEASURE(2.E-005),#334,
'DISTANCE_ACCURACY_VALUE','Maximum Tolerance applied to model');
#329=(
NAMED_UNIT(*)
SI_UNIT($,.STERADIAN.)
SOLID_ANGLE_UNIT()
);
#330=(
CONVERSION_BASED_UNIT('DEGREE',#332)
NAMED_UNIT(#331)
PLANE_ANGLE_UNIT()
);
#331=DIMENSIONAL_EXPONENTS(0.,0.,0.,0.,0.,0.,0.);
#332=PLANE_ANGLE_MEASURE_WITH_UNIT(PLANE_ANGLE_MEASURE(0.0174532925),#333);
#333=(
NAMED_UNIT(*)
PLANE_ANGLE_UNIT()
SI_UNIT($,.RADIAN.)
);
#334=(
LENGTH_UNIT()
NAMED_UNIT(*)
SI_UNIT(.MILLI.,.METRE.)
);
ENDSEC;
END-ISO-10303-21;
